Oh Girl

Dennis Brown

Home Page
Bass Guitar

Music Score PDF

IMG and Attributes

The Individual Bars

Each of the bars referenced in the PDF above, are given below. Below each bar is a Midi console which plays the bass tab it accompanies four times.

Bass Line 1 - Bar 1

 oh-girl-bass1.mp3
   Bb
  |----------------------------------------------------------------|
  |--------------------------------8-------8-----------------------|
  |------------------------8-----------------------8---------------|
  |6-------6-------------------------------------------------------|
   1       &      (2)      &       3       &       4  
  

Bass Line 2 - Bar 2

 oh-girl-bass2.mp3
   Ab
  |----------------------------------------------------------------|
  |--------------------------------6-------6-----------------------|
  |------------------------6-----------------------6---------------|
  |4-------4-------------------------------------------------------|
   1       &      (2)      &       3       &       4  
  

Bass Line 3 - Bar 5

 oh-girl-bass3.mp3
   Bb
  |----------------------------------------------------------------|
  |----------------------------------------------------------------|
  |--------------------------------8---10--8-----------------------|
  |6-------6---------------------------------------6---------------|
   1       &      (2)              3   e   &       4  
  

Bass Line 4 - Bar 6

 oh-girl-bass4.mp3
   Ab
  |----------------------------------------------------------------|
  |----------------------------------------------------------------|
  |--------------------------------3-------4-------6---------------|
  |4-------4-------------------4-----------------------------------|
   1       &      (2)          a   3       &       4  
  

Bass Line 5 - Bar 9

 oh-girl-bass5.mp3
   F
  |----------------------------------------------------------------|
  |--------------------------------10--12--10----------------------|
  |8-------8---------------------------------------8---------------|
  |----------------------------------------------------------------|
   1       &      (2)              3   e   &       4  
  

Bass Line 6 - Bar 10

 oh-girl-bass6.mp3
   Eb
  |----------------------------------------------------------------|
  |--------------------------------8---10--8-----------------------|
  |6-------6---------------------------------------6---------------|
  |----------------------------------------------------------------|
   1       &      (2)              3   e   &       4  
  

Bass Line 7 - Bar 13

 oh-girl-bass7.mp3
   Bb
  |----------------------------------------------------------------|
  |----------------------------------------------------------------|
  |--------------------------------5-------6-------8---------------|
  |6-------6-------------------6-----------------------------------|
   1       &      (2)      &   a   3       &       4  
  

Bass Line 8 - Bar 14

 oh-girl-bass8.mp3
   C
  |----------------------------------------------------------------|
  |----------------------------------------------------------------|
  |--------------------------------10--12--10----------------------|
  |8-------8---------------------------------------8---------------|
   1       &      (2)              3   e   &       4  
  

Bass Line 9 - Bar 15

 oh-girl-bass9.mp3
  (Db)                            (Eb)            (Bb)
  |----------------------------------------------------------------|
  |----------------------------------------------------------------|
  |----------------------------------------------------------------|
  |9-------9---------------9-------11------11------6---------------|
   1       &      (2)      &       3       &       4